-= Frank Black Forum =-
-= Frank Black Forum =-
Home | Profile | Register | Active Topics | Members | Search | FAQ
Username:
Password:
Save Password
Forgot your Password?

 All Forums
 Tabs and Trading
 Tabs & Musician Stuff
 TAB: Rock A My Soul
 New Topic  Topic Locked
 Printer Friendly
Author Previous Topic Topic Next Topic  

brysonmeunier
- FB Fan -

USA
44 Posts

Posted - 02/14/2004 :  11:36:10  Show Profile  Visit brysonmeunier's Homepage
Somebody on my Pixies site requested this, and I couldn't find it anywhere, so I gave it a shot. It seems pretty straightforward. Joey's fills are hard to hear, though, so I may be mistaking a slide for a bend. But the notes should be right. If FB tabbers want to look it over and give feedback, that would be great.

Thanks,
Bryson


Rock A My Soul
from "Rough Diamonds" and "Pixies" (2002)

E A
I turned you on the roof
E A
to shine your face at me.
E A
Drink wine from your tears, rollin'.
E A
Holy moly, Rock a my-
F# A
soul.
E F# A
Hey, rock a my soul (4)

Guitar 1
"soul...
|---------------------------------------|
|--10-----------10-------------10-------|
|--10-----8\10-----10---10\12------12---|
|--10-----------------------------------|
|---------------------------------------|
|---------------------------------------|

repeat, then...

Guitar 1
"hard...
|----------8--------------------------|
|----10------10---------10------------|
|--8----8--------8--9b------9-r-7/----|
|-------------------------------------|
|-------------------------------------|
|-------------------------------------|


Guitar 1
"We're waiting...
|--------------------------------|
|--------------------------------|
|--------------------------------|
|--0-----------------------------|
|-----1-------1-2-1------1-2-1---|
|--------2----------2--2-------2-|

D A F#
I'm waiting!
We're waiting!
for electric-
in a manor.

I'm waiting.
We're waiting,
sister shaking.

Harder I try,
although, (?)
harder I feel,
like a
Coltrane-
No brain.
Rock a my soul!

Hey, rock a my soul.
Hey, rock a my soul!
Oh, rock a my soul!
Hey, rock a my soul,
hard.

I'm waiting.
We're waiting,
for electric-
in a manor

I'm waiting.
We're waiting!


Bryson
Founder/Proprietor/Vitiator
- the HEY cafe -
http://www.arnoldjacksontheband.com/pixies.htm
  Previous Topic Topic Next Topic  
 New Topic  Topic Locked
 Printer Friendly
Jump To:
-= Frank Black Forum =- © 2002-2016 Frank Black Fans, Inc. Go To Top Of Page
Snitz Forums 2000