-= Frank Black Forum =-
-= Frank Black Forum =-
Home | Profile | Register | Active Topics | Members | Search | FAQ
Username:
Password:
Save Password
Forgot your Password?

 All Forums
 Tabs and Trading
 Tabs & Musician Stuff
 Los Surfers Muertos chords and tab
 New Topic  Reply to Topic
 Printer Friendly
Author Previous Topic Topic Next Topic  

doctordigger
- FB Fan -

9 Posts

Posted - 10/26/2019 :  12:33:06  Show Profile  Reply with Quote
My first go at this. Fantastic tune.


Tuning: EADGBE

[Intro]

   C#m         C#       A        C#     C#m     C#      A     C#
e|---------------------------------------------------------------|
B|---------------------------------------------------------------|
G|---------------------------------------------------------------|
D|---------------------------------------------------------------|
A|-----4-4--4-4/7\4----4/7\---6\--4----4/8\--6\--4----4/7\6\---4-|
E|---------------------------------------------------------------|


       D     E     C#m      D   E    C#m   B   A   D     E
e|---------------------------------------------------------------|
B|---------------------------------------------------------------|
G|---------------------------------------------------------------|
D|----6/7---7-6-4-4/6-------6/7-7-6-4-6-6\4-4\2-2/-4-\2-2-2/4\2--|
A|--4-----------------4---4--------------------------------------|
E|---------------------------------------------------------------|


[Verse]

C#m             C#
On a beach near Mexico

A                   C#
Los Surfers Muertos raved

C#m                C#
About a break on a shallow cove

A               C#
The Killer Dana Wave

D   E       C#m
Los Surfers Muertos

D        E          C#m
Vivieron antes del Puerto

      B        A
Where she came from

    D        E           C#m
She rode the wave on her long gun

[Chorus]

A             C#m
"Just one more ride"

E                  F#
The last words she said

A      E             F#       C#m
Killer Dana took her life instead

A        C#m
Went overhead

E                       F#
She caught her last big wave

A       E            F#    C#m
Killer Dana took her life away


[Outro]


e|---------------------------------------------------------------|
B|---------------------------------------------------------------|
G|---------------------------------------------------------------|
D|---------------------------------------------------------------|
A|-----4-4--4-4/7\4----4/7\---6\--4----4/8\--6\--4----4/7\6\---4-|
E|---------------------------------------------------------------|


e|---------------------------------------------------------------|
B|---------------------------------------------------------------|
G|---------------------------------------------------------------|
D|----6/7---7-6-4-4/6-------6/7-7-6-4-6-6\4-4\2-2/-4-\2-2-2/4\2--|
A|--4-----------------4---4--------------------------------------|
E|---------------------------------------------------------------|

e|------------------------------------------------|
B|---8/9--------------8/9-------------------------|
G|--------66/9-9---------6-6/9-4-----------------|
D|------------------------------------------------|
A|------------------------------------------------|
E|------------------------------------------------|

                              tr   tr   tr
e|---99/77/66/44\55/44/22\11--0----0----0----1----|
B|----------------------------5----4----4----2----|
G|------------------------------------------------|
D|------------------------------------------------|
A|------------------------------------------------|
E|------------------------------------------------|



Down in the valley where there used to be the farms
Doctor Digger found a room full of arms

Edited by - doctordigger on 10/26/2019 12:36:15
  Previous Topic Topic Next Topic  
 New Topic  Reply to Topic
 Printer Friendly
Jump To:
-= Frank Black Forum =- © 2002-2020 Frank Black Fans, Inc. Go To Top Of Page
Snitz Forums 2000