-= Frank Black Forum =-
-= Frank Black Forum =-
Home | Profile | Register | Active Topics | Members | Search | FAQ
Username:
Password:
Save Password
Forgot your Password?

 All Forums
 Tabs and Trading
 Tabs & Musician Stuff
 Suggestions/Requests!!!
 New Topic  Reply to Topic
 Printer Friendly
Author Previous Topic Topic Next Topic  

LonesomeFetter
- FB Fan -

USA
25 Posts

Posted - 10/22/2009 :  06:32:32  Show Profile  Visit LonesomeFetter's Homepage  Reply with Quote
Hello FB fans! Since I was doing this before we lost half of the forums, I will start to take request for songs to tab again. Post requests for songs you want me to tab here and I'll try to get them all.

Thanks, you are all the best!

Cult_Of_Frank
= Black Noise Maker =

Canada
11509 Posts

Posted - 10/22/2009 :  12:17:51  Show Profile  Visit Cult_Of_Frank's Homepage  Reply with Quote
Just an fyi, the old tabs are still cached in Google, so you may want to grab those if you haven't done so already...


"Now you're officially my woman. Kudos. I can't say I don't envy you."
Go to Top of Page

Sugar denizen
- FB Fan -

Israel
21 Posts

Posted - 10/23/2009 :  05:26:54  Show Profile  Reply with Quote
I think a proper "At the new house of the pope" is in order.
anyone else?
Go to Top of Page

ClassicalRey
- FB Fan -

54 Posts

Posted - 10/25/2009 :  17:24:54  Show Profile  Reply with Quote
I'm always putting Jaina Blues to the challenge.
Go to Top of Page

Sugar denizen
- FB Fan -

Israel
21 Posts

Posted - 10/25/2009 :  23:04:02  Show Profile  Reply with Quote
I'm with Rey on this. It's been a long time due
Go to Top of Page

Brank_Flack
= Cult of Ray =

Canada
587 Posts

Posted - 10/27/2009 :  14:37:43  Show Profile  Click to see Brank_Flack's MSN Messenger address  Reply with Quote
Whoops requested a song in the wrong thread, The Flower Song has a cool chord progression that i'd love to learn how to play
Go to Top of Page

LonesomeFetter
- FB Fan -

USA
25 Posts

Posted - 10/28/2009 :  10:07:27  Show Profile  Visit LonesomeFetter's Homepage  Reply with Quote
What album "Flower Song" on? I don't think I've heard it.

And say "everybody...
you're not just a duck...
You are HUMAN! Go forth and THRASH!" - Thurston Moore (Sonic Youth)

Edited by - LonesomeFetter on 10/28/2009 10:08:23
Go to Top of Page

Brank_Flack
= Cult of Ray =

Canada
587 Posts

Posted - 10/28/2009 :  11:26:56  Show Profile  Click to see Brank_Flack's MSN Messenger address  Reply with Quote
It's going to be on Der Golem, you can get it for free from blackfrancis.net by registering
Go to Top of Page

Sugar denizen
- FB Fan -

Israel
21 Posts

Posted - 12/16/2009 :  23:11:12  Show Profile  Reply with Quote
One obvious request left out: Dog Sleep.
Beautiful song
Go to Top of Page

guidzie
- FB Fan -

France
44 Posts

Posted - 12/29/2009 :  06:07:44  Show Profile  Reply with Quote
Dog Sleep

bass intro

sommething like this 3 times (with some variations on each time)
G-----------------------
D-----1-1h3-0-----------
A---3---------1h3-----3-
E-1---------------4-4---

then F Bb C (on "dog sleep" part)
and F Dm Bb G (on "everyday..." part)

Eerie endind

[Dm (many times) E7 Eb7]* x?

*
e-5-------------x-x
B-6-------------5-4
G-7-------------7-6
D-7-7-8-9-------6-5
A-5-------8-5---7-6
E-x-------------x-x



Edited by - guidzie on 12/29/2009 06:08:54
Go to Top of Page

Sugar denizen
- FB Fan -

Israel
21 Posts

Posted - 12/29/2009 :  21:22:33  Show Profile  Reply with Quote
Thank you guidzie!
Go to Top of Page

guidzie
- FB Fan -

France
44 Posts

Posted - 12/30/2009 :  00:37:04  Show Profile  Reply with Quote
The Flower Song

try this [C# G# Am# F# C# A Am#] all along the song

Go to Top of Page

Levitated
= Cult of Ray =

Chile
652 Posts

Posted - 12/30/2009 :  06:39:04  Show Profile  Reply with Quote
BFrancis' chords on Brick is Red would be sweet!!
Go to Top of Page

guidzie
- FB Fan -

France
44 Posts

Posted - 12/30/2009 :  12:41:12  Show Profile  Reply with Quote

Brick is Red

G1 : Joey 
G2 : Black Francis

Intro

G1
e   /------------------------/   /-------12---------12---------/ 
B   /-------3s5-5-5-5-5-5-5--/   /-10s12-12-10-10s1212-10-10s12/
G 6 /-0-2-0------------------/ 4 /-----____-------____---------/
D 4 /------------------------/ 4 /-----------------------------/
A   /------------------------/   /-----------------------------/
E   /------------------------/   /-----------------------------/
G2
  /--------------------------/   / 
  /-----------________-------/   / 
6 /-0-2-0--2-2b-------2r-0---/ 4 / Em Am Em
4 /--------___---------------/ 4 /
  /--------------------------/   /
  /--------------------------/   /


G1
  /--------------------------/   /-8-7-------------------------/ 
  /-------3s5-5-5-5-5-5-5----/   /-----10--8-7-----------------/
6 /-0-2-0--------------------/ 4 /-------------10-9------------/
4 /--------------------------/ 4 /-----------------------------/
  /--------------------------/   /-----------------------------/
  /--------------------------/   /-----------------------------/
G2
  /--------------------------/   / 
  /-----------________-------/   /
6 /-0-2-0--2-2b-------2r-0---/ 4 / Am C Am
4 /--------___---------------/ 4 /
  /--------------------------/   /
  /--------------------------/   /


G1
  /--------------------------/   /-------12---------12---------/ 
  /-----------________-------/   /-10s12-12-10-10s1212-10-10s12/ 
6 /-0-2-0--2-2b-------2r-0---/ 4 /-----____-------____---------/ 
4 /--------___---------------/ 4 /-----------------------------/
  /--------------------------/   /-----------------------------/
  /--------------------------/   /-----------------------------/
G2
  /--------------------------/   / 
  /-----------________-------/   / 
6 /-0-2-0--2-2b-------2r-0---/ 4 / Em Am Em
4 /--------___---------------/ 4 /
  /--------------------------/   /
  /--------------------------/   /


G1
  /-----------------/------------------------/   /---------------------------/ 
  /-8-8-7-8-8-7-8-8-/-10-10-9-10-10-9-10s(0)-/   /-----------________--------/ 
4 /-----------------/------------------------/ 6 /-0-2-0--2-2b-------2r-0----/ 
4 /-----------------/------------------------/ 4 /--------___----------------/
  /-----------------/------------------------/   /---------------------------/
  /-----------------/------------------------/   /---------------------------/
G2
  /                 /                        /   /---------------------------/ 
  /                 /                        /   /-----------________--------/ 
4 /       G         /          A             / 6 /-0-2-0--2-2b-------2r-0----/ 
4 /                 /                        / 4 /--------___----------------/
  /                 /                        /   /---------------------------/
  /                 /                        /   /---------------------------/



Verse


G1
  /-_____---------/-_____---------/-17-15---------/------------------------/
  /-12-12---------/-12-12---------/-------17-15---/------------------------/
4 /-14-14b--------/-14-14b--------/-------------16s14-14-12-------12-14-12-/
4 /-_____---------/-_____---------/---------------/---------12h14----------/
  /---------------/---------------/---------------/------------------------/
  /-(unison bend)-/-(unison bend)-/---------------/------------------------/
G
  /               /               /               /                        /
  /               /               /               /                        /
4 /  Em  Am       /  Em  Am       /  G  C         /  G   C                 /
4 /               /               /               /                        / 
  /               /               /               /                        /
  /               /               /               /                        /


G1
  /------/------/---------/-------/-----------/              
  /------/--13--/---------/-------/-----------/               
4 /--11--/--12--/--12---12s14-14--/-----------/      
4 /------/------/--______-/-------/--------12-/       
  /------/------/---------/-------/-------___-/      
  /------/------/---------/-------/-(0)s12   -/        
G2
  /      /      /         /       /           / 
  /      /      /         /       /           /
4 /  Bm  /   C  /   A     /   C   /   (E)     /       
4 /      /      /         /       /           /
  /      /      /         /       /           /
  /      /      /         /       /           /


G1
  /        /         /        /------------/    
  /        /         /        /------------/   
4 /  G  A  /  C  C7  /  G  A  /------------/  
4 /        /         /        /--------12--/
  /        /         /        /-------___--/ 
  /        /         /        /-(0)s12   --/
G2
  /  G  A  /  C  C7  /  G  A  / (E)        /

End : cf Intro
.
Go to Top of Page

space_has_done_me_good
- FB Fan -

17 Posts

Posted - 01/08/2010 :  19:06:31  Show Profile  Reply with Quote
How about End of the Summer? The link on the main tabs page leds to a dead end.
Go to Top of Page

fbc
-= Modulator =-

United Kingdom
4903 Posts

Posted - 04/02/2010 :  10:51:16  Show Profile  Visit fbc's Homepage  Reply with Quote
I suggest you come back.
Go to Top of Page

LonesomeFetter
- FB Fan -

USA
25 Posts

Posted - 04/09/2010 :  18:45:28  Show Profile  Visit LonesomeFetter's Homepage  Reply with Quote
Sorry, I haven't been able to tab out much stuff lately. I recently started working for a magazine and I started my own internet radio show. Plus, I got school to worry about. Life has been too busy. But I will try to tab some stuff out if I can. I'm really getting into NonStopErotik and y'all might see some tabs for that soon. Sorry guys.

And say "everybody...
you're not just a duck...
You are HUMAN! Go forth and THRASH!" - Thurston Moore (Sonic Youth)
Go to Top of Page

Brank_Flack
= Cult of Ray =

Canada
587 Posts

Posted - 04/11/2010 :  20:11:24  Show Profile  Click to see Brank_Flack's MSN Messenger address  Reply with Quote
Hey no worries, we're lucky to have you doing them at all. Looking forward for the NSE chords - especially O My Tidy Sum, Six Legged Man and Cinema Star.

------------------------
Golem Survivor Round 4 http://forum.frankblack.net/topic.asp?TOPIC_ID=20079
Go to Top of Page

Carl
- A 'Fifth' Catholic -

Ireland
11520 Posts

Posted - 04/14/2010 :  16:05:05  Show Profile  Reply with Quote
Veloria tab here. Pretty sure it's wrong - I'm certain Veloria is played with a capo at the first fret - but I just thought I'd post the link anyway.
Go to Top of Page

fbc
-= Modulator =-

United Kingdom
4903 Posts

Posted - 04/15/2010 :  09:56:30  Show Profile  Visit fbc's Homepage  Reply with Quote
The chorus is a bit iffy. Hey! I found a U on the floor. Anybody lost a U? :)
Go to Top of Page

Carl
- A 'Fifth' Catholic -

Ireland
11520 Posts

Posted - 04/15/2010 :  16:14:48  Show Profile  Reply with Quote
Ah... now I get it!
Go to Top of Page

Brank_Flack
= Cult of Ray =

Canada
587 Posts

Posted - 06/06/2010 :  11:57:45  Show Profile  Click to see Brank_Flack's MSN Messenger address  Reply with Quote
Request: O My Tidy Sum, t'would be much appreciated!

------------------------
Golem Survivor Round 4 http://forum.frankblack.net/topic.asp?TOPIC_ID=20079
Go to Top of Page

fbc
-= Modulator =-

United Kingdom
4903 Posts

Posted - 06/07/2010 :  00:52:40  Show Profile  Visit fbc's Homepage  Reply with Quote
http://forum.frankblack.net/topic.asp?TOPIC_ID=20107 :)
Go to Top of Page

Brank_Flack
= Cult of Ray =

Canada
587 Posts

Posted - 06/07/2010 :  06:26:15  Show Profile  Click to see Brank_Flack's MSN Messenger address  Reply with Quote
Oh wow, thanks! I totally missed that, and feel like a bit of an idiot!

------------------------
Golem Survivor Round 4 http://forum.frankblack.net/topic.asp?TOPIC_ID=20079
Go to Top of Page

theobedientservent
- FB Fan -

3 Posts

Posted - 02/22/2011 :  04:35:05  Show Profile  Visit theobedientservent's Homepage  Reply with Quote
would love"seven fingers" tab???
Go to Top of Page

theobedientservent
- FB Fan -

3 Posts

Posted - 02/22/2011 :  07:16:20  Show Profile  Visit theobedientservent's Homepage  Reply with Quote
would love"seven fingers" tab???
Go to Top of Page

Cult_Of_Frank
= Black Noise Maker =

Canada
11509 Posts

Posted - 02/23/2011 :  08:55:40  Show Profile  Visit Cult_Of_Frank's Homepage  Reply with Quote
Is there anybody still interested in managing our tabs section of the website, compiling the missing ones into .txt files and/or verifying submissions from the forum sound good?


"Now you're officially my woman. Kudos. I can't say I don't envy you."
Go to Top of Page

lonely persuader
= Cult of Ray =

Ireland
488 Posts

Posted - 08/25/2011 :  13:09:50  Show Profile  Reply with Quote
7 finger? any tab out there?
Go to Top of Page

fbc
-= Modulator =-

United Kingdom
4903 Posts

Posted - 08/26/2011 :  01:54:45  Show Profile  Visit fbc's Homepage  Reply with Quote
It goes a little like this

B

Am G E D7 Am (i was born with 7...)

Am D D7 C F (well tonight i'll be...)

Am G E D7 (i was born with 7 fingers 7....)

B (wahhhhh...)

Am (toes, 7 toes, 7 toesssss...)

---2--- | ------------------2----------------------
---4--- | ---1----1----1----1----1----1----1----1--
---4--- | ---2----2----0----2----2----2----2----2--
---4--- | ---2----2----2--0------2----2----2----2--
---2--- | -0-----------2-------0---------0---------
---2--- | ------3----0--------------3---------3----


------------------2---2------------
----1----1----1---3---1----1---1---
----2----2----2---2---2----0---2---
----2----2----2------------2---3---
--0---------0--------------3---3---
-------3-------------------3-------


-------3--------2------2------------
--1----0----0---3------4---------1--
--2----0----1---2------4---------2--
--2----0----2---0------4---------2--
--0----2----2----------2---------0--
-------3----0----------2------------


{edit: got a chord name wrong} Not sure what Bf actually plays.

Edited by - fbc on 08/27/2011 03:25:25
Go to Top of Page

Brank_Flack
= Cult of Ray =

Canada
587 Posts

Posted - 09/06/2013 :  10:15:50  Show Profile  Click to see Brank_Flack's MSN Messenger address  Reply with Quote
Request for Andro Queen.
Go to Top of Page

fbc
-= Modulator =-

United Kingdom
4903 Posts

Posted - 09/22/2013 :  12:59:56  Show Profile  Visit fbc's Homepage  Reply with Quote
in the key of F

---1-----------1----1---
---1------0----3----1---
---2------0----3----2---
---3------3----3----3---
---3------2----1----3---
---1-----------1----1---


F   C  Dm  A#  F  C  F

F   C  Dm  A#  F  C  F  Dm  F  C  F



Edited by - fbc on 09/22/2013 13:13:28
Go to Top of Page

Brank_Flack
= Cult of Ray =

Canada
587 Posts

Posted - 03/25/2014 :  11:49:21  Show Profile  Click to see Brank_Flack's MSN Messenger address  Reply with Quote
Cheers! Could anyone put up Silver Snail?
Go to Top of Page

picpic
* Dog in the Sand *

Belgium
1085 Posts

Posted - 03/26/2014 :  23:32:52  Show Profile  Reply with Quote
Judging from videos (the Tiny Desk performance for example), there are somme odd chords in this one. I'll try to figure it out... nice challenge for a novice player ;-)

___
"Service Unavailable"
Go to Top of Page

picpic
* Dog in the Sand *

Belgium
1085 Posts

Posted - 03/26/2014 :  23:33:45  Show Profile  Reply with Quote
Judging from videos (the Tiny Desk performance for example), there are somme odd chords in this one. I'll try to figure it out... nice challenge for a novice player ;-)

___
"Service Unavailable"
Go to Top of Page
  Previous Topic Topic Next Topic  
 New Topic  Reply to Topic
 Printer Friendly
Jump To:
-= Frank Black Forum =- © 2002-2016 Frank Black Fans, Inc. Go To Top Of Page
Snitz Forums 2000