-= Frank Black Forum =-
-= Frank Black Forum =-
Home | Profile | Register | Active Topics | Members | Search | FAQ
Username:
Password:
Save Password
Forgot your Password?

 All Forums
 Tabs and Trading
 Tabs & Musician Stuff
 Bel Esprit
 New Topic  Reply to Topic
 Printer Friendly
Author Previous Topic Topic Next Topic  

JoshIAm
- FB Fan -

Australia
58 Posts

Posted - 12/17/2016 :  14:28:09  Show Profile  Reply with Quote
Where are you fbc? I think I've nailed the bridge ... thoughts?

Points to concede:

- Paz's harmony is on point. <3

Bel Esprit

C Am F C

   C                   Am
He did his little dance
       E                      F
There up in the north of Spain
C Am
Danced all the way to France
E F
Just to try to bring her rain

C Am F C
That's the waaaaaaaay of this man

He rolled away the stone
With a plastic crucifix
'Cos he'd rather get his kicks
Than to be here all alone

That's the waaaaaaaay of this man

[Bridge]:

     Bb   Bb/A Bb/G Bb/A    Dm  A7  Cm  Bb      Bb   Bb/A Bb/G Bb/A
e|---1------------------|---1---4---3---1---|---1------------------|
D|---3----3----3----3---|---3---3---4---3---|---3----3----3----3---|
B|---3----3----3----3---|---2---3---5---3---|---3----3----3----3---|
G|---3----3----3----3---|---0---3---5---3---|---3----3----3----3---|
A|---1----0----x----0---|-----------3---1---|---1----0----x----0---|
E|---x---------3--------|-----------x---x---|---x---------3--------|

He's not much of a bel esprit
She can't seem to understand him
A bit more like a chimpanzee

C Am F C
C Am F C (over Santiago)

She thinks he has no soul
'Cos he never learned to crawl

That's the waaaaaaaay of this man

And he can only sing
Of his incipient love

That's the waaaaaaaay of this man

[Bridge]
He's not much of a bel esprit
She can't seem to understand him
A bit more like a chimpanzee

F Dm B (sublime key-change - why are things so hard to make out?)
That's the waaaaaaaay of this man

picpic
* Dog in the Sand *

Belgium
1065 Posts

Posted - 12/19/2016 :  10:13:22  Show Profile  Reply with Quote
Nice shot for the bridge. Sounds right !

After the "that's the way of this man", looks like BF is playing something like this:

0---0---0---0---0   0---0---0---0---0
1---1---1---3---1   1---1---1---3---1
2---2---2---2---2   0---0---0---0---0
3---3---3---3---3   2---2---2---2---2
X---X---X---X---X   3---3---3---3---3
X---X---X---X---X   X---X---X---X---X

I might be wrong though. Any clue ? Look here @1:51 https://www.youtube.com/watch?v=zXduDJODscA

He also does a lot of extra notes with his little finger (how do you call em ? 7ths ? dunno. Extra notes la Greens and Blues chorus.)


Would be nice to post other Head Carrier chords. Title track is easy, I'll try to post them later.

___
"Service Unavailable"

Edited by - picpic on 12/19/2016 10:13:39
Go to Top of Page
  Previous Topic Topic Next Topic  
 New Topic  Reply to Topic
 Printer Friendly
Jump To:
-= Frank Black Forum =- © 2002-2016 Frank Black Fans, Inc. Go To Top Of Page
Snitz Forums 2000