-= Frank Black Forum =-
-= Frank Black Forum =-
Home | Profile | Register | Active Topics | Members | Search | FAQ
Username:
Password:
Save Password
Forgot your Password?

 All Forums
 Tabs and Trading
 Tabs & Musician Stuff
 The Vanishing Spies End Solo
 New Topic  Reply to Topic
 Printer Friendly
Author Previous Topic Topic Next Topic  

dukeofcalistan
- FB Fan -

USA
54 Posts

Posted - 01/26/2012 :  16:33:22  Show Profile  Reply with Quote
Always loved this solo by Lyle Workman. Feel free to suggest revisions and things, it's only my first tab. I wasn't sure in a couple places, but I think this sounds pretty good overall:

---------------------I------------------------
---------------------I------------------------
---------------------I-------5--7b9r7~~----5--
---------5b7r5~~-----I--5h7-----------------7-
---------------------I------------------------
1--/5-8--------------I------------------------

-------------------------I-----------------------
-------------------------I-----------------------
-------------------------I------------5-7b9-7b9~~
5------------------------I--------5-7------------
---7-5\3----3h5----------I-3-5/7-----------------
----------5-----3h5--3h5-I-----------------------

--------------------------I----------------------------
---8b10~~~10r8-6-5h6p5--5-I----------------------------
~~---------------------7--I-7-5h7p5-4--4---------------
--------------------------I-----------7--5-------------
--------------------------I----------------5\3-2-------
--------------------------I----------------------3~~~3-

----------------------------------------I--------------
----------------------------------------I--------------
0h2-2-0-0-------------------------------I--------------
x---x-x-x-2-0h2p0---2/-5-7-5-0--------0-I--------------
3---3-3-3---------3-------------3-0-3---I-5--7--9~~----
----------------------------------------I--------------

------------------I----------------------------
x--10b12~~--12-8~~I-5h6p5----------------------
x-----------------I-------7-5--4-----------4h5-
------------------I--------------7-5~~--5h7----
------------------I----------------------------
------------------I----------------------------

------------------------------I------------------------
------------------------------I---------------------13-
10----9-----------------------I-------------9/12-14----
--------10-12-10h12-----------I-------10h12------------
--------------------10h12--12-I-10h12------------------
------------------------------I------------------------

-------15---------------------------I----------------------------
15b17----17~~---------15-13---13-15-I-15b17~~--1h3-1-----1---5-5-
--------------pb17r15-------14------I----------0---0--3--0---0-0-
------------------------------------I----------------------------
------------------------------------I----------------------------
------------------------------------I----------------------------

--------------------------------------I-----------------
5-5-3-3-1-1-----1---------------------I-----------------
2-2-2-2-2-2-2-2-x-2---2-2-2-2---2-----I-----------------
----------------2-0h2-2-2-2-0h2-2-2p0-I-----------------
--------------------------------------I-3-0-3-5-3-0-3-5-
--------------------------------------I-----------------

-----------------I---------------------------------
-----------------I----6------6------6----6----6----
---------7b9~~---I~~----7b9----7b9---7b9--7b9--7b9-
-------5---------I---------------------------------
3~~-/7-----------I---------------------------------
-----------------I---------------------------------

--------------------------------------I--------------
---6-------------------------5--8b10--I-~~~~~--------
-----7b9r7-5---5h7-------5h7----------I--------------
-------------7-------5h7--------------I--------------
--------------------------------------I--------------
--------------------------------------I--------------



Edited by - dukeofcalistan on 01/26/2012 16:35:04
  Previous Topic Topic Next Topic  
 New Topic  Reply to Topic
 Printer Friendly
Jump To:
-= Frank Black Forum =- © 2002-2016 Frank Black Fans, Inc. Go To Top Of Page
Snitz Forums 2000