-= Frank Black Forum =-
-= Frank Black Forum =-
Home | Profile | Register | Active Topics | Members | Search | FAQ
Username:
Password:
Save Password
Forgot your Password?

 All Forums
 Tabs and Trading
 Tabs & Musician Stuff
 honeycomb solo tab
 New Topic  Reply to Topic
 Printer Friendly
Author Previous Topic Topic Next Topic  

dwid
- FB Fan -

USA
3 Posts

Posted - 02/14/2006 :  14:54:39  Show Profile  Visit dwid's Homepage  Reply with Quote
hey, i know this is pretty simple and my tabbing skills leave something to be desired. but because no one else has posted it, i thought give this a shot.
------------------------------------------------10/12-15-12~---
-----8-10/12-8-8-----/12-10-8---8-8-----8-10/12-------------15-
-9-9-------------9p7----------9-----7h9------------------------
---------------------------------------------------------------
---------------------------------------------------------------
---------------------------------------------------------------

-12-17-15-12b----12-17-17-15---------------------
--------------15-------------12h14p12-14brp12-9--
-------------------------------------------------
-------------------------------------------------
-------------------------------------------------
-------------------------------------------------

i know i got some parts wrong, but could anyone help me out?

sporky
- FB Fan -

2 Posts

Posted - 07/22/2010 :  06:28:11  Show Profile  Reply with Quote
Hi, here's my go, get it finished!

-------------------------------------------
-----8-10/12-8-8 ~ -----/12-10-8-------8-8---
-9-9----------------9p7-------------9----------9-
----------------------------------------------
------------------------------------------------
-----------------------------------------------


------------------------ 10/12--15--12--12--10---12--
------------ -10 ^12---------------------------------
79-9^12-12-------------------------------------------
------------------------------------------------------
-------------------------------------------------------
-------------------------------------------------------


-17-15-12---12---17--17-15---/7---7---7----
----------------------------------10--8---10--
-------------------------------------------------
-------------------------------------------------
-------------------------------------------------
--------------------------------------------------


-7-----------------------------------------
-10 b11--11--11--8----------------------------
----------------------PM x9--x7--x9--x7--x9--x7--x9--x7
---------------------------------------------
--------------------------------------------
------------------------------------------

Edited by - sporky on 07/22/2010 06:36:24
Go to Top of Page

sporky
- FB Fan -

2 Posts

Posted - 01/11/2012 :  06:12:20  Show Profile  Reply with Quote
------------------------------------------
-----8-10/12-8-8 ~ -----/12-10-8-------8-8---
-9-9----------------9p7-------------9----------9-
----------------------------------------------
------------------------------------------------
-----------------------------------------------


---------------------10/12--15--12---10---12--
-------8/10--10/12----------------------------------------
7-7--9------------------------------------------------
------------------------------------------------------
-------------------------------------------------------
-------------------------------------------------------


-17-15-12---15-12 -15--17--17-15-----/7-------7------7
-------------------------------------8/10--- 8/10---8/10-
-------------------------------------------------
-------------------------------------------------
-------------------------------------------------
--------------------------------------------------


-7-----------------------------------------
-10 b11--11--11--8----------------------------
----------------------PM x9--x7--x9--x7--x9--x7--x9--x7
---------------------------------------------
--------------------------------------------
------------------------------------------
Edited by - sporky on 07/22/2010 06:36:24
Go to Top of Page

santiagoo
- FB Fan -

France
3 Posts

Posted - 05/02/2013 :  20:38:26  Show Profile  Visit santiagoo's Homepage  Reply with Quote
Thanks to you for posting this
(and thanks to everyone posting tabs, that's useful)
Go to Top of Page
  Previous Topic Topic Next Topic  
 New Topic  Reply to Topic
 Printer Friendly
Jump To:
-= Frank Black Forum =- © 2002-2016 Frank Black Fans, Inc. Go To Top Of Page
Snitz Forums 2000