-= Frank Black Forum =-
-= Frank Black Forum =-
Home | Profile | Register | Active Topics | Members | Search | FAQ
Username:
Password:
Save Password
Forgot your Password?

 All Forums
 Tabs and Trading
 Tabs & Musician Stuff
 allison solo tabbed
 New Topic  Reply to Topic
 Printer Friendly
Author Previous Topic Topic Next Topic  

ijdnwtdwm
- FB Fan -

Chile
27 Posts

Posted - 03/11/2005 :  17:40:33  Show Profile  Click to see ijdnwtdwm's MSN Messenger address  Reply with Quote
this is the first part, live is pretty much just noise, but in the studio version you can hear something like this (played very fast)

E---------------------------------------------------------
B-13------------------------------------------------------
G-15^-15-13-------------13--13----------------------------
D-----------15-13----13-15^-15^^^^------------------------
A-----------------15--------------------------------------
e---------------------------------------------------------

second part, i'm 100% sure of it

E-----13-16-13-----13-16-13---------------------------------
B-13^----------13^------------------------------------------
G----------------------------13-12-13-12-10-13-12-13-5-7-9--
D-----------------------------------------------------------
A-----------------------------------------------------------
e-----------------------------------------------------------

just hear the song and you'll figure out inmediately.... i'm 14 and this my first tab... so, enjoy playin' it.....

ijdnwtdwm
- FB Fan -

Chile
27 Posts

Posted - 01/25/2006 :  19:34:04  Show Profile  Click to see ijdnwtdwm's MSN Messenger address  Reply with Quote
thanks...
Go to Top of Page

Erebus
* Dog in the Sand *

USA
1834 Posts

Posted - 01/25/2006 :  22:17:31  Show Profile  Reply with Quote
I just don't know what to do with myself either.
Go to Top of Page

Levitated
= Cult of Ray =

Chile
652 Posts

Posted - 01/26/2006 :  07:31:54  Show Profile  Reply with Quote
Yeah it's very accurate, thanks!!
Any luck trying to figure out Joey's solo on all over the world??
Go to Top of Page
  Previous Topic Topic Next Topic  
 New Topic  Reply to Topic
 Printer Friendly
Jump To:
-= Frank Black Forum =- © 2002-2020 Frank Black Fans, Inc. Go To Top Of Page
Snitz Forums 2000