-= Frank Black Forum =-
-= Frank Black Forum =-
Home | Profile | Register | Active Topics | Members | Search | FAQ
Username:
Password:
Save Password
Forgot your Password?

 All Forums
 Tabs and Trading
 Tabs & Musician Stuff
 Ana second guitar
 New Topic  Topic Locked
 Printer Friendly
Author Previous Topic Topic Next Topic  

rattboi
- FB Fan -

1 Posts

Posted - 01/03/2004 :  01:59:58  Show Profile
Hey,

The song Ana is one of my favorite Pixies songs, and I love playing it on my guitar, no matter how easy it is. Joey's guitar lines are just beautiful. But I noticed the tab isn't complete here (or anywhere, I think). Here's a few thoughts:


G#(add3,+5)  C#m             G#               A              Bbm
-----------|---------------|-----------12--9-|--------------|----
-----------|----------5--7-|-----------------|---------5--7-|-6--
-----------|----6--8-------|-8---\13---------|---6--8-------|----
-----------|---------------|-----------------|--------------|----
-----------|---------------|-----------------|--------------|----
-----------|---------------|-----------------|--------------|----


should actually be:


G#(add3,+5)  C#m             G#               A              Bbm
-----------|---------------|-----------12--9-|--------------|---------
-----------|----------5--7-|-----------------|---------5--7-|-6-------
-----------|----6--8-------|-8---\13---------|---6--8-------|-------6-
-----------|---------------|-----------------|--------------|---------
-----------|---------------|-----------------|--------------|---------
-----------|---------------|-----------------|--------------|---------


Yeah, just that last note there, but it's really obvious it's there, so it should be in the tab.

Also, during the main verse, Joey's guitar isn't tabbed. I know I don't have it perfect yet, but it's something along these lines:


-----------|---------------|-11-9------8-----|-----------
-----------|---------------|------11-8---11--|-----------
-----7-9-7-|-9^10----------|-----------------|-----------
-7-9-------|---------------|-----------------|-----------
-----------|---------------|-----------------|-----------
-----------|---------------|-----------------|-----------
She's my fave               Undressing in the sun

-----------|---------------|-----------------|---------------|
-----------|---------------|-----------------|---------------|
-----7-9-7-|-9^10----------|-----7-9-7--9^10-|----7----------|
-7-9-------|---------------|-7-9-------------|---------------|
-----------|---------------|-----------------|---------------|
-----------|---------------|-----------------|---------------|
Return to sea, bye                            Forgetting everyone

-11-9------|---------------|
-----------|11s13s11-------|
-----------|---------------|
-----------|---------------|
-----------|---------------|
-----------|---------------|
Eleven high


I think it's pretty close though. That last part is a little iffy. Anyways, any thoughts on this would be nice. Thanks guys (and gals).

samsmithnz
- FB Fan -

USA
36 Posts

Posted - 01/08/2004 :  20:22:00  Show Profile  Visit samsmithnz's Homepage
Good Work!
Go to Top of Page
  Previous Topic Topic Next Topic  
 New Topic  Topic Locked
 Printer Friendly
Jump To:
-= Frank Black Forum =- © 2002-2016 Frank Black Fans, Inc. Go To Top Of Page
Snitz Forums 2000