-= Frank Black Forum =-
-= Frank Black Forum =-
Home | Profile | Register | Active Topics | Members | Search | FAQ
Username:
Password:
Save Password
Forgot your Password?

 All Forums
 Tabs and Trading
 Tabs & Musician Stuff
 The Sad Punk Guitar Solo
 New Topic  Topic Locked
 Printer Friendly
Author  Topic Next Topic  

Winch-V
- FB Fan -

2 Posts

Posted - 11/12/2003 :  07:03:06  Show Profile
Hi !

Does anyone have the tab for the 2 guitars of the solo of "The sad punk" ?
I think it's one the most wonderfull solo for 2 guitars I've heard and I'd like to play it but I'm not good enough to transcribe it by ears, so...

Thanx in advance
Winch-V

brysonmeunier
- FB Fan -

USA
44 Posts

Posted - 02/14/2004 :  11:28:28  Show Profile  Visit brysonmeunier's Homepage
quote:
Originally posted by Winch-V



Does anyone have the tab for the 2 guitars of the solo of "The sad punk" ?




Try this:

The Sad Punk - Pixies
from Trompe Le Monde (1991)

fill 1
F# C C# Ab
I smell smoke that
F# C# D
comes from a gun
fill 2
A F#
named extinction

fill 1 fill 2
|-<12>------------------------<12>-----------|-19-19-19-19-18--18|
|------<12>--------------<12>------<12>------|-------------------|
|-----------<12>------------------------<12>-|-------------------|
|--------------------------------------------|-------------------|
|--------------------------------------------|-------------------|
|--------------------------------------------|-------------------|

It was so long ago
could have happened to anyone
he was struck by a bullet
and he melted into fluid named extinction

flying noise solo (pan left to right; flanger)
Guitar 1 ( ''' = tremolo picking)
|-----------------------------------------------|
|--10-------------------------------------------|
|--12b-12'''-13'''-(etc...to the highest fret)--|
|-----------------------------------------------|
|-----------------------------------------------|
|-----------------------------------------------|

one thousand miles an hour
I'm just like anyone
I want to feel
the road of tar beneath the wheel named extinction

Guitar 1 (lead; right channel)
|---------------------------------------------------------------------|
|------2-----3--------2--------------2-----3--2-----------------------|
|--2-4---4-2------2-4---4-2------2-4---4-2-------4--2-2\4~~~~~--------|
|---------------------------4-----------------------------------------|
|---------------------------------------------------------------------|
|---------------------------------------------------------------------|
| Guitar 2 (rhythm; left channel)
| A D A B A D (B)
|---------------------------------------------------------------------|
|-------------------------------------------------------------3-3-3-2-|
|------------7--------------4--------------7-----------/4-------------|
|------7-----7--------7-----4--------7-----7-----------/4--4----------|
|------7-----5--------7-----2--------7-----5-----------/2-------------|
|------5--------------5--------------5--------------------------------|

Guitar 1
|---------------------------------------------------------------------|
|---------------------------------10---10-----------------------------|
|--4p2\4~~~~~-------------------9----9----9-11--------9-9--11---------|
|--------------------------------------------------------------7------|
|---------------------------------------------------------------------|
|---------------------------------------------------------------------|
|---------------------------------------------------------------------|
| Guitar 2
| A Bm
|---------------------------5-------5-----5---------------------------|
|-----------7-7-7-5---5-----5-------5-----5---------3-----------------|
|--4-2-\-4----------7-------------------------------------------------|
|------------------------7-------7-----7--------4---------------------|
|------------------------7-------7-----7-----7--4---------------------|
|------------------------5-------5--------------2-------<2>--0-2------|

Guitar 1
|---------------------------------------------------------------------|
|-------10---12-10----------------------------------------------------|
|--9h11----9-------------------11-11---9--9/------------------6-4-2---|
|---------------------------------------------------------7-----------|
|---------------------------------------------------------------------|
|---------------------------------------------------------------------|
|---------------------------------------------------------------------|
| Guitar 2
| A Bm A
|--------5-------5--5---------------2---------------------------------|
|--------5-------5--5---------------3----------------2-----2-2-0---3--|
|-------------------------4--6/----------------------2-----------2----|
|----7-------7---------4---------------4-------------2----------------|
|----7-------7---------------------------4-----------0--0-------------|
|----5-------5-------------------2----------2--0--2-------------------|

Guitar 1
|---------------------------------------------------------------------|
|--3-----p2-----------------------------------------------------------|
|------------4------2-\4~~~~-------4p2\4~~~~~-------------------------|
|---------------------------------------------------------------------|
|---------------------------------------------------------------------|
|---------------------------------------------------------------------|
| Guitar 2
|---------------5\(2)-------------------------------------------------|
|---------7-7---------------3-3-3-2------------7-7-7-5----------------|
|------------------------4----------4p2-/4--4-----------7\(3)---------|
|-----4------------------4--------------------------------------------|
|---------------------------------------------------------------------|
|---------------------------------------------------------------------|

continue with similar over verse:

and evolving from the sea
would no be too much time for me
to walk beside you in the sun

Guitar 1
"I... read... something... ... son of a gun...
|---------------------------------------------------------------------|
|---------------------------------------------------------------------|
|-----6-4-6---------------6-4-6-4----------6-4-6-4-6-4-7-6-7-/--------|
|--4-------------------4----------7------4----------------------------|
|---------------------------------------------------------------------|
|---------------------------------------------------------------------|

Guitar 1
"extinction!
|---------------------------------------------------------------------|
|---------------------------------------------------------------------|
|-----------------------------------------------------------------4-6-|
|--7-6-7-6-7-6-7-6-7-6-7-6-7-6-7-6--4-3-4-3-7-6-7-6-7-7-7-7-7-7-7-----|
|---------------------------------------------------------------------|
|---------------------------------------------------------------------|

Guitar 1
|--5---------------2----------|
|----5---------------2--------|
|------6------(6)/-----3------|
|-----------------------------|
|-----------------------------|
|-----------------------------|

note: the rhythm guitar is so distorted during the bridge that
it's difficult to pick out every note, so i've tabbed what i could within the chord structure. use it as a guide. corrections/suggestions welcome.

Bryson
Founder/Proprietor/Vitiator
- the HEY cafe -
http://www.arnoldjacksontheband.com/pixies.htm
Go to Top of Page

Winch-V
- FB Fan -

2 Posts

Posted - 02/24/2004 :  06:55:04  Show Profile
Oooohhhh ThanX !

I'm really happy to be able to play this solo now, it's been a so long time I've looked for it...

ThanX again, you've done a really good job !

CyA
.::Winch-V::.
Go to Top of Page

nimrod_fr
- FB Fan -

France
93 Posts

Posted - 02/24/2004 :  14:43:03  Show Profile
thanks for the tab... great job now I have to pick my electric guitar
Go to Top of Page
   Topic Next Topic  
 New Topic  Topic Locked
 Printer Friendly
Jump To:
-= Frank Black Forum =- © 2002-2016 Frank Black Fans, Inc. Go To Top Of Page
Snitz Forums 2000