-= Frank Black Forum =-
-= Frank Black Forum =-
Home | Profile | Register | Active Topics | Members | Search | FAQ
 All Forums
 Tabs and Trading
 Tabs & Musician Stuff
 Oona Lead guitar chords

Note: You must be registered in order to post a reply.
To register, click here. Registration is FREE!

Screensize:
UserName:
Password:
Format Mode:
Format: BoldItalicizedUnderlineStrikethrough Align LeftCenteredAlign Right Horizontal Rule Insert HyperlinkInsert EmailInsert Image Insert CodeInsert QuoteInsert List
   
Message:

* HTML is OFF
* Forum Code is ON
Smilies
Smile [:)] Big Smile [:D] Cool [8D] Blush [:I]
Tongue [:P] Evil [):] Wink [;)] Clown [:o)]
Black Eye [B)] Eight Ball [8] Frown [:(] Shy [8)]
Shocked [:0] Angry [:(!] Dead [xx(] Sleepy [|)]
Kisses [:X] Approve [^] Disapprove [V] Question [?]

 
   

T O P I C    R E V I E W
picpic Posted - 12/10/2018 : 02:32:14
Hi peers

Can't really write tabs but here's an imperfect lead guitar tab for Oona

Let me know if I left any mistakes.

Youtube link: https://www.youtube.com/watch?v=X6D2F6mTaPM



Note:
G(*): "G" is sometimes played 35x5xx.  

Intro

E|--------------------------------------------------------------------------------------
B|--------------------------------------------------------------------------------------
G|------10----11-\10-\8--8--7--7--------10----11-\10-\8--8-\7-/12--------10-------7-----
D|-/12-----------------------------/12------------------------------/12-------/8-----8--
A|--------------------------------------------------------------------------------------
E|--------------------------------------------------------------------------------------


Verse

Her place was like an eyrie
The fall seemed very scary

E|-----6----------------
B|--------8----6-/7-/8-- (/8 is very quiet)
G|--7-------------------
D|----------------------
A|----------------------
E|---------------------- 
Down to the strand...

Please,    I wanna be in your...

E|-----6----------------------
B|-----------7-------8-----6--
G|--7-----7-------7-----7-----
D|----------------------------
A|----------------------------
E|----------------------------
 ...band


E|-----------------------------------------------
B|-----------------------------------------------
G|-----------------------------------------------
D|----------------0----------------------0-------
A|-------1-----------3----------1-------------3--
E|--3-------------------3--3---------------------
I see her body swaying, I hear her fingers playing

Gm      A      D     D  (Joey play D - D instead of Francis Dm - D)
    Her parlor grand

D#         
Please,    

(Mute)
I wanna be in your...

E|-----6----------------------
B|-----------7-------8-----6--
G|--7-----7-------7-----7-----
D|----------------------------
A|----------------------------
E|----------------------------
 ...band


Chorus

Bb    C#   F#          D#          G(*)
    Oona,      I will await destruction

Bb    C#   F#          D#          G(*)
    Oona,      I will await destruction
Bb       C#   D#              F#
    My owner,     Im Oonas

G#m


Verse

E|-----------------------------------
B|-----------------------------------
G|-----------------------------------
D|------------0----------------0-----
A|-------1-------3--------1-------3--
E|--3---------------3--3-------------
And automatic writing, I hear they do it nightly

Gm      A    D     D  (Joey play D - D instead of Francis Dm - D)
    Her wild jams

D#         
Please,    

(Mute)
I wanna be in your...


E|-----6----------------------
B|-----------7-------8-----6--
G|--7-----7-------7-----7-----
D|----------------------------
A|----------------------------
E|----------------------------
    band...

E|--------------------------------------------------
B|--------------------------------------------------
G|--8--8--8--8--8--8--8--8--8--8--8--8--8--8--8--8--
D|--8--8--8--8--8--8--8--8--8--8--8--8--8--8--8--8--
A|--------------------------------------------------
E|--------------------------------------------------
    Please...               I wanna be in your...

E|-----6--------------------------------------------------
B|-----------7-------8-----6------------------------------
G|--7-----7-------7-----7----------------------------------
D|--------------------------------------------------------
A|--------------------------------------------------------
E|--------------------------------------------------------
    band...


Chorus

Bb    C#   F#          D#          G(*)
    Oona,      I will await destruction

Bb    C#   F#          D#          G(*)
    Oona,      I will await destruction
Bb       C#   D#              F#
    My owner,     Im Oonas


Play Francis intro riff...(3x times)
E|--x\x--x--x----
B|--x\x--x--x----
G|--x\x--x--x----
D|--6\5--5--5----
A|--x\x--x--x----
E|--4\3--3--3----

Then on the E string...

E|--4\3==


Bridge (no distortion)...  juste play on the lower E string

    Ah ha ha...
E|--/6----\3--3--3--------\1--1--/3--


Verse

I hear her fingers playing...

Gm      A      D     D  (Joey play D - D instead of Francis Dm - D)
    Her parlor grand

D#       F                    Bb     D  G  F
Please,    I wanna be in your band

D#       F                    Bb     D  G  F
Please,    I wanna be in your band

D#       F                    ...to solo
Please,    I wanna be in your ...


Solo

E|-------------------------------------------------------
B|--11--11--14h11--11----11--14h11--11----11--14h11--11-- (let ring and push your guitar neck forward to bend "backwards...  or use your tremolo ?)
G|-------------------------------------------------------
D|-------------------------------------------------------
A|-------------------------------------------------------
E|-------------------------------------------------------

E|-------------------------------------------------------------------------------
B|--11--14h11--11----11--14h11--11----11--13----15-------------------------------
G|--------------------------------------------------17b19~19~19~19~19~19~19~19~19 (classic Santiago bend)
D|-------------------------------------------------------------------------------
A|-------------------------------------------------------------------------------
E|-------------------------------------------------------------------------------


Chorus

Bb    C#   F#          D#          G(*)
    Oona,      I will await destruction

Bb    C#   F#          D#          G(*)
    Oona,      I will await destruction
Bb       C#   D#              F#
    My owner,     Im Oonas

G#m



___
"Service Unavailable"

-= Frank Black Forum =- © 2002-2016 Frank Black Fans, Inc. Go To Top Of Page
Snitz Forums 2000